Ukulele Chord - UkuleleChord.com

UKULELE CHORD RESOURCES:


UKULELE CHORD CHART | EASY CHORDS | MOVABLE CHORDS

BARITONE UKULELE CHORDS | HOW TO READ UKULELE CHORDS

 

 

Ukulele Chord

the #1 site for free ukulele chord resources



UKULELE CHORD TUNING...
HOW TO TUNE A UKULELE?




UKULELE
CHORDS

UKULELE
SONGS

UKULELE
ARTISTS

UKULELE
VIDEOS

UKULELE
BOOKS

BUY
UKULELES

BROWSE UKULELE SONGS
A B C D E F G H I J K L M N O P Q R S T U V W X Y Z




BROWSE CHORDS BY ROOT






Straight, No Chaser

   by Thelonious Monk
 
CHORDS USED IN THIS SONG

A7

D7

C#m7

"Straight, No Chaser" by Thelonious Monk

Chords:
| A7  / / / | D7 / D7 / | A7 / / / | / / A7 A7|
| A7  / / / | D7 / D7 / | A7 / / / | / / A7 A7|
|C#m7 / / / | /  / D7 / | A7 / / / | / / /  / |

In the case of the double A7s at the ends of bars 4 and 8, they're just typical uke accents.

Melody:
A|--0-2-3-4----0-2-3-4-5-3----0-2-3-4---0-2-3-4---0-2-3----
E|-0----------0--------------0---------0---------0---------
C|---------------------------------------------------------
G|---------------------------------------------------------

A|--0-2-3-4-5-3-----0-2-3-4---0-2-3-4---0-2-3-4-5-6-7---
E|-0---------------0---------0---------0----------------
C|------------------------------------------------------
G|------------------------------------------------------

A|-----------0-1-2-3-4-5-6----0-2-3-4----
E|-0-1-2-3-4-----------------0-----------
C|---------------------------------------
G|---------------------------------------


Ukulele Chord © 2012