Ukulele Chord - UkuleleChord.com

UKULELE CHORD RESOURCES:


UKULELE CHORD CHART | EASY CHORDS | MOVABLE CHORDS

BARITONE UKULELE CHORDS | HOW TO READ UKULELE CHORDS

 

 

Ukulele Chord

the #1 site for free ukulele chord resources



UKULELE CHORD TUNING...
HOW TO TUNE A UKULELE?




UKULELE
CHORDS

UKULELE
SONGS

UKULELE
ARTISTS

UKULELE
VIDEOS

UKULELE
BOOKS

BUY
UKULELES

BROWSE UKULELE SONGS
A B C D E F G H I J K L M N O P Q R S T U V W X Y Z




BROWSE CHORDS BY ROOT






Ukulele Lady

   by Richard Whiting and Gus Kahn
 
CHORDS USED IN THIS SONG

G7

C

C7

F

D7

"Ukulele Lady" by Richard Whiting and Gus Kahn

Here is a transcription following Petty Booka's version with wordless, plucked introduction.

Introduction:

A|----------------------0----
E|-3--3--3--3--3--3--3-------
C|---------------------------
G|---------------------------

A|----------------0----------
E|-3--3--3--3--3-----0-------
C|---------------------------
G|---------------------------

A|---------------------------
E|----------------------0----
C|-2--2--2--2--2--2--2-------
G|---------------------------

A|----------------0--2--3--2-
E|-3--2--0--2--3-----------1-
C|-------------------------2-
G|---------------------------

Verse:

If [C]you like Ukulele Lady,
Ukulele Lady like-a you.
If [G7]you like to linger where it's shady,
Ukulele Lady linger [C]too.

If you kiss Ukulele Lady
While you promise ever to be true,
And [G7]she sees another Ukulele
Lady fooling 'round with [C]you [C7]

[F]Maybe she'll sigh
[C]Maybe she'll cry
[D7]Maybe she'll find somebody else[G7]
By and by

To [C]sing to when it's cool and shady
Where the tricky wicky wacky woo
If [G7]you like Ukulele Lady,
Ukulele Lady like-a [C]you.


Ukulele Chord © 2012